Exo-brain

Parce que j'ai un cerveau, mais pas trop.

Outils pour utilisateurs

Outils du site


musique:ukulélé:tablatures:we-wish-you-a-merry-christmas

We wish you a merry christmas

A |----------------0----------------   -------0-----0--2--0-------------
E |-------3-----3-----3--2--0-----0-   -0-----0--------------3--2-------
C |-2-----2-----------------0-------   -------0-----------------2-----2-
G |-------0-----------------0-------   -------2-----------------2-------
          |                 |                 |                 |


A |-------2-----2--3--2--0----------   -------------0-------------------
E |-2-----2-----------------3-------   -------0-----------2-----3-------
C |-------2-----------------4-----4-   -2-----0-----------2-----2-------
G |-------------------------4-------   -------0-----------2-----0-------
          |                 |                 |                 |
musique/ukulélé/tablatures/we-wish-you-a-merry-christmas.txt · Dernière modification: 24 Nov 2020 :: 10:13 de CgX