Wiki CgX

Parce que j'ai un cerveau, mais pas trop.

Outils pour utilisateurs

Outils du site


musique:ukulélé:tablatures:tetris

Tetris

A |--0-----------------------0-------------------0----------------
E |------0-1-3---1-0-------1-----3-1-0-----1-3-------1------------
C |------------------2---2-------------------------------2---2----
G |---------------------------------------------------------------
     |       |       |       |       |       |       |       |    



A |--------1-5---3-1-0-------0-------------------0----------------
E |----3-------------------1-----3-1-0---0-1-3-------1------------
C |------------------------------------------------------2---2----
G |---------------------------------------------------------------
     |       |       |       |       |       |       |       |    
musique/ukulélé/tablatures/tetris.txt · Dernière modification: 21 Nov 2020 :: 11:44 de CgX