Exo-brain

Parce que j'ai un cerveau, mais pas trop.

Outils pour utilisateurs

Outils du site


musique:ukulélé:tablatures:stairway-to-heaven

Led Zeppelin - Stairway to heaven

    Am      E+      C       D       F               G AmAm
A | 0-----0-2-----0-3-----3-0-----0-0---------0-----2-0-0-----0-----|
E | ----0-----0-------0-------2-------1---1-----1---3-0-0-----------|
C | --0---------0-------0-------2-------0---------0-2-0-0------/5-4-|
G | 2-------1-------0-------2-------2---------------0-2-2-----------|
    |       |       |       |       |       |       |       |        


    Am      E+      C       D       F               G AmAm
A | 0-----0-2-----0-3-----3-0-----0-0---------0-----2-0-0-------0-2-|
E | ----0-----0-------0-------2-------1---1-----1---3-0-0-----------|
C | --0---------0-------0-------2-------0---------0-2-0-0-----------|
G | 2-------1-------0-------2-------2---------------0-2-2-----------|
    |       |       |       |       |       |       |       |      


    C       D       F       Am        C       G         D AmAm
A | 3-----3-0-----0-0-----0-------0-2-3-----3-2-----2---0-0-----0-2-|
E | ----0-----2-------1---------0---------0-----3-----3\2-2---------|
C | --0---------2-------0---------------0---------2-----2-2---------|
G | 0-------2-------2-------0h2-------0-----------------2-2---------|
    |       |       |       |         |       |       |             


    C       D       F       Am        C       D       AmF F
A | 3-----3-0-----0-0-----0-------0-2-3-----3-0-----0-0-0-0---------|
E | ----0-----2-------1---------0---------0-----2-----0-1-1---------|
C | --0---------2-------0---------------0---------2---0-0-0---------|
G | 0-------2-------2-------0h2-------0-------2-------2-2-2---------|
    |       |       |       |         |       |       |             

musique/ukulélé/tablatures/stairway-to-heaven.txt · Dernière modification: 21 Nov 2020 :: 12:18 de CgX