Wiki CgX

Parce que j'ai un cerveau, mais pas trop.

Outils pour utilisateurs

Outils du site


musique:ukulélé:tablatures:pink-floyd-wish-you-were-here

Pink Floyd - Wish you were here

Accords

1)


Intro

[Am] [C] [Am] [C]
[Am] [D] [Am] [D]
[C] [C]

Couplet

[F] [G] [Dm] [C]
[G] [F] [Dm] [C]

                        Am                       C
A |--------------0-------0-------3---0-----------3-------
E |----------3-----------0---------------3-------0-------
C |--0---2~4-------------0-----------------------0-------
G |----------------------2-----------------------0-------
         |       |       |       |       |       |

                        Am                       C
A |--------------0-------0-------3---0-----------3-------
E |----------3-----------0---------------3-------0-------
C |--0---2~4-------------0-----------------------0-------
G |----------------------2-----------------------0-------
         |       |       |       |       |       |


                        Am                       D
A |--------------0-------0---0---------------------------
E |----------3-----------0-------3---0-----------2-------
C |--0---2~4-------------0---------------2-------2-------
G |----------------------2-----------------------2-------
         |       |       |       |       |       |

                        Am                       D
A |--------------0-------0---0---------------------------
E |----------3-----------0-------3---0-----------2-------
C |------2~4-------------0---------------2-------2-------
G |----------------------2-----------------------2-------
         |       |       |       |       |       |

                         C       
A |----------------------3-------
E |--------------------- 0-------
C |------2-4-2-0-0-------0-------
G |----------------------0-------
         |       |       |       
1)
Attention : Les accords affichés sont pour un gaucher !
musique/ukulélé/tablatures/pink-floyd-wish-you-were-here.txt · Dernière modification: 21 Nov 2020 :: 12:03 de CgX