Wiki CgX

Parce que j'ai un cerveau, mais pas trop.

Outils pour utilisateurs

Outils du site


musique:ukulélé:tablatures:antisocial

Ceci est une ancienne révision du document !


Trust - Antisocial

Accords

1)


Intro

[C] [C] [C]

    C               C               G               G
A|--3-------3-------3-------3-------2-------2-------2-------2-------|
E|--0---------0-----0---------0-----3---------3-----3---------3-----|
C|--0-----0---------0-----0---------2------2--------2------2--------|
G|--0---------------0---------------0---------------0---------------|
 |  |               |               |               |               |

Bridge / Drums

[D] [Bb] [C] [A] [D] [A]

1er Couplet

D 
Tu bosses toute ta vie pour payer ta pierre tombale

Bb 
Tu masques ton visage en lisant ton journal

C 
Tu marches tel un robot dans les couloirs du métro

A                                D         A 
Les gens ne te touchent pas faut faire le premier pas

D
Tu voudrais dialoguer sans renvoyer la balle

Bb 
Impossible d'avancer sans ton gilet pare-balle

C 
Tu voudrais donner des yeux a la justice

A                          D               A 
Impossible de violer cette femme pleine de vices

Riff intro du Refrain

                      D
A|--------------------0---|
E|--------1--3--------2---|
C|--0--2--------2--0--2---|
G|--------------------2---|

Refrain

D             C                           G  F 
Antisocial tu perds ton sang froid

D                C                        G  F 
Repense à toutes ces années de service

D          C                              G  F 
Antisocial bientôt les années de sévices

D              C                             G 
Enfin le temps perdu qu'on ne rattrape plus
1)
Attention : Les accords affichés sont pour un gaucher !
musique/ukulélé/tablatures/antisocial.1605956956.txt.gz · Dernière modification: 21 Nov 2020 :: 12:09 de CgX