Wiki CgX

Parce que j'ai un cerveau, mais pas trop.

Outils pour utilisateurs

Outils du site


musique:basse:tablatures:what-planet-is-this

菅野よう子 – What Planet is this ?

Riff Principal

G|--------88\--------------686------------88\--------------------|G
D|----------------------------86-4-6-----------------6--7--8~----|D
A|--/6-------------------------------6---------------------------|A
E|---------------------------------------------------------------|E

Bridge

G|-------------3-------1-----------------------------------------|G
D|---1-----1-4-----4---------------------------3-------1---------|D
A|-----------------------------------1-----1-4-----4-------------|A
E|---------------------------------------------------------------|E
musique/basse/tablatures/what-planet-is-this.txt · Dernière modification: 24 Nov 2020 :: 17:05 de CgX