Exo-brain

Parce que j'ai un cerveau, mais pas trop.

Outils pour utilisateurs

Outils du site


musique:basse:tablatures:time

Pink Floyd – Time

Intro

G|----------------------------------------|
D|----------------------------------------|
A|---------------------------------0------|
E|-0---2----0-----2--0---2--0---2-----0-2-|

G|---------------------------------------|
D|--4--4--2h4----4-5-6-7-------7---7-7---|
A|-----------------------0-7-7---7-------|
E|---------------------------------------|

G|----------------------------------------|
D|-2---2--0-2---0-2-2---4---4-------------|
A|---------------------------4-4------4-4-|
E|-------------------------------2--2-----|

G|---------------------------------------|
D|-4----4---2--2--4-5-6-7---------7------|
A|-------------------------0-7--7---7----|
E|------------------------------------7--|

G|---------------------------------------|
D|---------2----2-2--2-3---4----4--------|
A|-------------------------------4--4----|
E|-7--0----------------------------------|

G|---------------------------------------|
D|---------4-----------------------------|
A|-------4----5----5-5----------7-5--5-5-|
E|--2---2---------------5--5-5-----------|

G|---------------------------------------|
D|------------------7--------------------|
A|-----------5--5-5---5-4----4-4---2--2-2|
E|-5--5-5--------------------------------|

G|---------------------------------------|
D|----2-----2-3--------------------------|
A|--------2------------------------------|
E|--0------------------------------------|

Guitar Solo Starts

G|---------------------------------------|
D|-4--4--2-4---4-5--6-7-----7------------|
A|---------------------------4---7-------|
E|---------------------------------------|

G|---------------------------------------|
D|-7----7-7----4-2---2--0-2-----2-3------|
A|---7-----------------------------------|
E|---------------------------------------|

G|---------------------------------------|
D|-4--4-----------------4--4-------------|
A|------4--4-------4--4------4-4---------|
E|-----------2---2---------------2--2-3-4|

G|---------------------------------------|
D|----7----------7-----------2-3---------|
A|---7---7---7-7---7--7--5-7-------------|
E|-5-------5-----------------------------|

G|---------------------------------------|
D|-4--4---------------4--4---2-4--4-5-6--|
A|------4--4------4--4-------------------|
E|-----------2--2------------------------|

G|---------------------------------------|
D|-7---------7----7--7/9-----------2-3---|
A|------4--7----7----------7-7--7--------|
E|----5------------------0---------------|

G|---------------------------------------|
D|-4---4--------------4--4--2-4---4-5--6-|
A|-------4-4--------4--------------------|
E|-----------2--2-5----------------------|

G|---------------------------------------|
D|-7----------7-------7-------------2-3--|
A|------4---7----4--7----7---7-5-7-------|
E|----5----------------------------------|

G|---------------------------------------|
D|-4--------------------------7-7--------|
A|----4-4---4--------4--5---5----5-------|
E|------------2--2--5--------------------|

G|---------------------------------------|
D|---7------7----------------------------|
A|------------5----5-5-------7-----------|
E|-5---5--5------------------------------|

G|---------------------------------------|
D|---7---------7------------7------------|
A|----------------5----5--5---5----------|
E|-5----5--5-----------------------------|

G|---------------------------------------|
D|---------------------------------------|
A|-4-----4--4----2---2--2----------------|
E|----------------------------0----------|

Verse Starts Again

G|---------------------------------------|
D|-2----------2--4---4----2-4--4--5-6----|
A|---------------------------------------|
E|---0---0-4-----------------------------|

G|---------------------------------------|
D|-7----------7----7-7---2----2---0------|
A|-----4-7--7----7-----------------------|
E|---------------------------------------|

G|---------------------------------------|
D|-2---2-3---4---------------------------|
A|---------------4--4-----------4--------|
E|---------------------2---2-5-----------|

G|----------------------7----------------|
D|-4---4--2-4---4-4---4------------------|
A|----------------------------4----7-----|
E|--------------------------5------------|

G|-7------7-7----------------------------|
D|-----7-----------2---0-2----2-3--------|
A|---------------------------------------|
E|-------------0-------------------------|

G|---------------------------------------|
D|-4---4---------------------------------|
A|------4---4---------4-5----------------|
E|------------2---2-5--------------------|

G|---------------------------7-----------|
D|---------------------------------------|
A|-5-5-----------------------------------|
E|-------5-----5--5----------------------|

G|---------------------------------------|
D|---------------------------------------|
A|-5-------5--5------7-------------------|
E|-------------------------5-------------|

G|---------------------------------------|
D|-------------7-------------------------|
A|----------------------5----------------|
E|--5----5-------------------------------|

G|---------------------------------------|
D|--------7------------------------------|
A|--5--5-----5----4----------4--4--------|
E|---------------------------------------|

G|---------------------------------------|
D|---------------------------------------|
A|--2------------------2-----------------|
E|---------------------------------------|

G|---------------------------------------|
D|---------------------------------------|
A|-2--------------------2----------------|
E|---------------------------------------|

Breathe Reprise

G|---------------------------------------|
D|-------------------------7-------------|
A|-7----7--7-----------------------------|
E|------------5-----5--5-----------------|

G|----------9----------------------------|
D|-------7--------------7----------------|
A|-7------------7------------------------|
E|------------------5------5-5-----------|

G|-----------------4---------------------|
D|------------------5--------------------|
A|-7--------7--7-------------------------|
E|-------7--------------5-------5--5-----|

G|---------------------------------------|
D|---------------------7-----------------|
A|-7------7--7-----------4----5-6--------|
E|---------------5-----------------------|

G|---------------------------------------|
D|---------------------------------------|
A|-7------7--7---------------------------|
E|-----------------5-----5--5--5----7/9--|

G|---------------------------------------|
D|----------------------7--5-------------|
A|-7-----7--7-----------------7----5-----|
E|----------------5----------------------|

G|---------------------------------------|
D|-----------5-----------------4---------|
A|-3----3--3---3--2------2--2---2--------|
E|---------------------------------------|

G|---------------------------------------|
D|-3------------------5------------------|
A|-----------0-3----------5----6----2----|
E|-----1--1-------3----------------------|
musique/basse/tablatures/time.txt · Dernière modification: 24 Nov 2020 :: 16:52 de CgX