Exo-brain

Parce que j'ai un cerveau, mais pas trop.

Outils pour utilisateurs

Outils du site


musique:basse:tablatures:the-package

A perfect circle - The Package

Main riff

G-----------------------------------------------------
D-----------------------------------------------------
A-----5---7-------------------3---5-------------------
E--------------0----0-3-0-0------------0----0-3-0-0---

G-----------------------------------------------------
D-----------------------------------------------------
A-----5---7-------------------5---3-------------------
E--------------0----0-3-0-0------------0----0-3-0-0---

When maynard starts singing the “Lie to get…” part play this riff the same just his the notes on the E string a whole lot harder so you get that grim evil sounding ring.

Heavy part

G-------------------------------------
D-------------------------------------
A-------------------------------------
E-----2-2-2-0-----(0)---(0)---(0)-----

Play this a few times, then just play the main riff for the rest of the heavy part.

Play the main riff until the end of the song

musique/basse/tablatures/the-package.txt · Dernière modification: 24 Nov 2020 :: 16:30 de CgX