Exo-brain

Parce que j'ai un cerveau, mais pas trop.

Outils pour utilisateurs

Outils du site


musique:basse:tablatures:the-joker

Steve Miller Band - The Joker

Riff

G -----------------------------------------------------------------------|
D -----------------------0-----------------------------------------------|
A -------------0-1-1---1---33------0--1-1-1-1-1----0---------------------|
E -1--1------3------------------3---------------------3------------------|

Intro/Verse

G -----------------------------------------|
D -----------------------------------------|
A ----------3h5----1---------3h5-----------|    (Chorus Repeat 2X)
E 1----------------------------------------|
musique/basse/tablatures/the-joker.txt · Dernière modification: 24 Nov 2020 :: 17:04 de CgX