Exo-brain

Parce que j'ai un cerveau, mais pas trop.

Outils pour utilisateurs

Outils du site


musique:basse:tablatures:smells-like-teen-spirit

Nirvana – Smells like teen spirit

Intro/Chorus

G-----------------------------
D-----------------------------  x4
A-----------1-1------4-4------
E-1/---1-11-----4-44-----0----

Verse

G---------------------------------
D---------------------------------   x10
A---------1-1-1-1---------4-4-4-4-
E-1-1-1-1---------4-4-4-4---------

Post Chorus

G-------------------------------
D-------------------------------  x6
A-------------------------------
E-1-1-1-11-44---1-1-1-11-55-33--

Ending

G|-----------
D|-----------
A|-----------
E|----1~~----
musique/basse/tablatures/smells-like-teen-spirit.txt · Dernière modification: 24 Nov 2020 :: 16:44 de CgX