Wiki CgX

Parce que j'ai un cerveau, mais pas trop.

Outils pour utilisateurs

Outils du site


musique:basse:tablatures:ratm-bombtrack

Rage Against The Machine - Bombtrack

Intro

G----------------------------------------------------------------------
D----2-0---0----------2-0---0-2-5~------2-0---0----------2-0---0-------
A--------2---2-0----------2-----------------2---2-0----------2---2-----
E--0-------------3--0-----------------0-------------3--0-----------3-2-

G----------------------------------------------------------------------
D----2-0---0----------2-0---0-2-5~------2-0---0------------------------
A--------2---2-0----------2-----------------2---2-0--------------------
E--0-------------3--0-----------------0-------------3--0-0-0-0-0-0-0-0-

Chorus riff

G-----------------------------------------
D-----4---------4-2------4-------6--5--4--
A--------------------------------4--3--2--
E-0-2---0-2-0-2------0-2---0-2-0----------

Verse riff

G-----------------------------------------------
D--------------------------------4-2------------
A------------------------------------4-3-2------
E--2-2-0--2-2-2-2-5~--2-2-0--2-0-----------5~---

Bridge

G------------------------------------------------------------------
D------------------------------------------------------------------
A-----------------------------------------------------4-0-3-0-2-0--
E--2-0-2-0-5--2-0-2-0-2-X-X-X-X----2-0-2-0-5--2-0-2-0--------------
musique/basse/tablatures/ratm-bombtrack.txt · Dernière modification: 08 Sep 2021 :: 14:34 de CgX