Wiki CgX

Parce que j'ai un cerveau, mais pas trop.

Outils pour utilisateurs

Outils du site


musique:basse:tablatures:rappers-delight

Rapper's Delight

G -----------------------------------------------------------------
D --------------------------------------------------------0---2----
A --------------------------------------------0---2---4---------0--
E 0-------0-------0-------------0-0---2---3------------------------
  |       |       |       |       |       |       |       |       |

G ------------------------------------------------------------------
D ------------------------------------0-4-0-5---4-------------------
A 0-------0-------0-------------0-0-----------------0-----0---------
E --------------------------------------------------------------3-2- 
  |       |       |       |       |       |       |       |       |
musique/basse/tablatures/rappers-delight.txt · Dernière modification: 24 Nov 2020 :: 16:58 de CgX