Wiki CgX

Parce que j'ai un cerveau, mais pas trop.

Outils pour utilisateurs

Outils du site


musique:basse:tablatures:muse-muscle-museum

Muse - Muscle Museum

Intro

G|---------------------------------|
D|-4---4---4---4---4---4---4---4---|
A|---4---4---4---4---4---4---4---4-|
E|---------------------------------|

Couplet (x6)

G|-----------------------------------------------6-7-4-------------|
D|-4---4---4---4-------------------4---4---4---4-------4-0---0-2-3-|
A|---4---4---4---4-4---4---4---4-----4---4---4-------------2-------|
E|-------------------4---4---4---4---------------------------------|

Pont

G|--------------------------------------------------------------7-7-7-7-7--7-7-7-7-7-7-7-7-7-7-|
D|---------------------------------------------------------------------------------------------|
A|-----------------------------5-5-5-5-5-5-5-5-5-5-5-5-5-5-5-5---------------------------------|
E|-2-2-2---------4-4-4-------------------------------------------------------------------------|

Refrain

G|------------------------------------------------------------------------------------------|
D|------------------------------------------------------------------------------------------|
A|-----------------------4-4-4--4---4-4-4--4-------------------------2-2-2--2---2-2-2-------|
E|-2-2-2--2---2-2-2--2-------------------------2-2-2--2---2-2-2--2--------------------5-4-5-|

G|------------------------------------------------------------------------------------------|
D|-------------------------------------------------------------------------------------0-2--|
A|-----------------------4-4-4--4---4-4-4--4-------------------------2-2-2--2---2-2-2-------|
E|-2-2-2--2---2-2-2--2-------------------------2-2-2--2---2-2-2--2--------------------------|

Après-refrain

G|-----------------------------------------------------------------|
D|---------------------------------4---4---4---4---4---4---4---4---|
A|-----------------------------------4---4---4---4---4---4---4---4-|
E|-0-0-0-0-0-0-0-0-1-1-1-1-1-1-1-1---------------------------------|

Couplet (x3)

Pont

Refrain

Fin

G|------------------------------------------------------------------|
D|---------------------------------4-4-4-4-2-2-2-2-0-0-0-0-0-0-0/7--|
A|------------------------------------------------------------------|
E|-0-0-0-0-0-0-0-0-1-1-1-1-1-1-1-1----------------------------------|

G|------------------------------------------------------------------|
D|---------------------------------4-4-4-4-2-2-2-2-0-0-0-0-0-0------|
A|------------------------------------------------------------------|
E|-0-0-0-0-0-0-0-0-1-1-1-1-1-1-1-1-----------------------------10\0-|

G|-----------------------------------------------------------------|
D|-----------------------------------------------------------------|
A|-0-0-0-0-0-0-0-0-------------------------2-2-0-----------2-2-0---|
E|-----------------4-4-4-4-4-4-4-4-2-2-2-2-------4-2-2-2-2-------4-|

G|-------------------------------------------------|
D|-------------------------------------------------|
A|-------0-2-2-0---------0-2-2-0-------------------|
E|-2-2-4---------4-2-2-4---------4-2---------------|
musique/basse/tablatures/muse-muscle-museum.txt · Dernière modification: 08 Sep 2021 :: 14:36 de CgX