Exo-brain

Parce que j'ai un cerveau, mais pas trop.

Outils pour utilisateurs

Outils du site


musique:basse:tablatures:money

Pink Floyd – Money

Intro

G|--4----------|
D|---4------0--| x8
A|-2--2-0-2----|
E|-----2-------|

Verse

G|--4----------|--4----------|-------------|--4----------|
D|---4------0--|---4------0--|--0-0------0-|---4------0--| x2
A|-2--2-0-2----|-2--2-0-2----|-2-2-2-0-2---|-2--2-0-2----|
E|-----2-------|-----2-------|------2------|-----2-------|

Chorus

G|-------------------------|               G|--4----------|
D|-4-4------4-3-2---------0|  x1           D|---4------0--| x2
A|----4-0-4------2----0-2—-|               A|-2--2-0-2----|
E|-----2----------0-3------|               E|-----2-------|

Sax Solo

G|--4----------|       G|--9----------|       G|--4----------|
D|---4------0--| x10   D|---9------5--| x4    D|---4------0--| x4
A|-2--2-0-2----|       A|-7--7-5-7----|       A|-2--2-0-2----|
E|-----2-------|       E|-----7-------|       E|-----2-------|

G|-------------------------|
D|-4-4------4-3-2---------0|
A|----4-0-4------2----0-2--|
E|-----2----------0-3------|

A|----222222----| x4

Guitar Solo Section 1 & 2

G|------------|       G|----------|       G|------------|
D|------0-----| x8    D|-2-1-0----| x4    D|------0-----| x4
A|-0h2-2-4-3--|       A|-------4--|       A|-0h2-2-4-3--|
E|------------|       E|----------|       E|------------|

G|------------|       G|-4-2------|----------|
D|---4-3-2----| x2    D|-----5-4--|-2--------|
A|-2----------|       A|----------|---5-4-3--|
E|------------|       E|----------|----------|

[Switch to 7/4 Time]

G|--4----------|
D|---4------0--| x2
A|-2--2-0-2----|
E|-----2-------|

Verse

Chorus

Ending

D|--0-0-0-0-0---| Repeat and fade.
A|-2-2-2-2-2-2--|
musique/basse/tablatures/money.txt · Dernière modification: 24 Nov 2020 :: 16:50 de CgX