Wiki CgX

Parce que j'ai un cerveau, mais pas trop.

Outils pour utilisateurs

Outils du site


musique:basse:tablatures:kschoice-not-an-addict

K's Choice - Not an Addict

G |--------------------------------------------------------------------|
D |------------------------------------------------------------1-2-1---|
A |-0-0-0-0-0-0-0-0--4-4-4-4-4-4-4-4--2-2-2-2-2-2-2-2--2-2-2-2-------2-|
E |--------------------------------------------------------------------|


G |--------------------------------------------------------------------|
D |--------------------------------------------------------------------|
A |-0-0-0-0-0-0-0-0--4-4-4-4-4-4-4-4--2-2-2-2-2-2-2-2--2-2-2-2-2-2-4---|
E |------------------------------------------------------------------2-| Repeat 3 times


G |----------------------------------|
D |----------------------------------|
A |----------------------------------|
E |-0-0-0-0-2-2-2-2--5-5-5-5-5-5-5-0-|


G |---------------------------------------------------|
D |---------------------------------------------------|
A |---------------------------------------------------|
E |-0-0-0-0-2-2-2-2--5-5-5-5-5-5-5-5--5-5-5-5-5-5-5-0-|


G |--------------------------------------------------------------------|
D |--------------------------------------------------------------------|
A |-0-0-0-0-0-0-0-0--4-4-4-4-4-4-4-4--2-2-2-2-2-2-2-2--2-2-2-2-2-2-4---|
E |------------------------------------------------------------------2-| Repeat 2 times


G |----------------------------------|
D |----------------------------------|
A |----------------------------------|
E |-0-0-0-0-2-2-2-2--5-5-5-5-5-5-5-0-| Repeat 2 times


G |---------------------------------------------------|
D |---------------------------------------------------|
A |---------------------------------------------------|
E |-0-0-0-0-2-2-2-2--5-5-5-5-5-5-5-5--5-5-5-5-5-5-5-0-|


G |--------------------------------------------------------------------------|
D |----------------------------------------------------------------8-9-8/(2)-|
A |--------------------------------------------------------------------------|
E |-5-5-5-5-5-5-5-5--9-9-9-9-9-9-9-9--7-7-7-7-7-7-7-7--7-7-7-7-7-7-----------|


G |--------------------------------------------------------------------|
D |--------------------------------------------------------------------|
A |-0-0-0-0-0-0-0-0--4-4-4-4-4-4-4-4--2-2-2-2-2-2-2-2--2-2-2-2-2-2-4---|
E |------------------------------------------------------------------2-| Repeat 2 times


G |----------------------------------|
D |----------------------------------|
A |----------------------------------|
E |-0-0-0-0-2-2-2-2--5-5-5-5-5-5-5-0-| Repeat 2 times


G |---------------------------------------------------|
D |---------------------------------------------------|
A |---------------------------------------------------|
E |-0-0-0-0-2-2-2-2--5-5-5-5-5-5-5-5--5-5-5-5-5-5-5-0-|


G |-----------------------------------|
D |-----------------------------------|
A |-7-7-7-7-7-7-7777-5-5-5-5-5-5-5555-|
E |-----------------------------------|


G |--------------------|
D |--------------------|
A |-14/(2)-14-1414/(2)-|
E |--------------------| Repeat 2 times


G |-----------------------------------|
D |-----------------------------------|
A |-7-7-7-7-7-7-7777-5-5-5-5-5-5-5555-|
E |-----------------------------------|


G |--------------------|
D |--------------------|
A |-14/(2)-14-1414/(2)-|
E |--------------------| Repeat 2 times


G |---------------------------------|
D |---------------------------------|
A |-3-3-3-3-3-3-3-3================-|
E |---------------------------------|


G |-9==============-|
D |-9==============-|
A |-----------------|
E |-----------------|


G |------------R------------|
D |------------R------------|
A |------------R------------|
E |------------R------------|
 "It is not a habit......"


G |----------------------------------|
D |----------------------------------|
A |----------------------------------|
E |-0-0-0-0-2-2-2-2--5-5-5-5-5-5-5-0-| Repeat 6 times


G |----------------------------------|
D |------------------------------467-|
A |----------------------------------|
E |-0-0-0-0-2-2-2-2--5-5-5-5-5-5-----| Repeat 5 times


G |--------------------------------------------|
D |----------------------------------4-6-77===-|
A |--------------------------------------------|
E |-0-0-0-0-2-2-2-2--5-5-5--5--5--5------------| 
musique/basse/tablatures/kschoice-not-an-addict.txt · Dernière modification: 08 Sep 2021 :: 14:37 de CgX