Exo-brain

Parce que j'ai un cerveau, mais pas trop.

Outils pour utilisateurs

Outils du site


musique:basse:tablatures:get-lucky

Daft Punk - Get Lucky

G|--------------4-------|-----------7--------------|------------11------------|
D|-----------x---x------|--------------x-----------|---------------x----------|
A|2---2---2--------2--4-|---5---5-x-------5---5--7-|--9---9--x-------9---11---|
E|----------------------|--------------------------|--------------------------|


G|-------9--------------|-----------4--------------|-----------7--------------|
D|---------x--------7h9-|--------------x-----------|-------------x------------|
A|7--7-x-----7--7h9-----|------2--x--------2--2--4-|--5---5-x------5---5-5-7-7|
E|----------------------|-7------------------------|--------------------------|


G|----------11----------|-----------9--------------|---------4----------------|
D|------------x---------|-------------x-------7h9--|-----------x--------------|
A|--9--9-x------9--11--9|--7---7-x------7--7h9-----|----2-x-------2--2-2-4-4--|
E|----------------------|--------------------------|--7-----------------------|


G|--------7--7----------|--------------------------|--------------------------|
D|----------------------|-----------4--------------|-----------------x--------|
A|-5---5-------5-5-5h7-5|--------------x-----------|------7--7--x-7----0-0-1-1|
E|----------------------|--2---2--x-------2--2--4--|-0--0---------------------|
musique/basse/tablatures/get-lucky.txt · Dernière modification: 24 Nov 2020 :: 17:06 de CgX