Wiki CgX

Parce que j'ai un cerveau, mais pas trop.

Outils pour utilisateurs

Outils du site


musique:basse:tablatures:coldplay-everythings-not-lost

Coldplay - Everything's Not Lost

Play nothing til the postchorus (after hoping everything's not lost) :

Postchorus riff

|------7h9(9)---6h7-7-|-------------------|
|-------------7-------|-5---4h5-5-4h5h7---| Play a few times
|-7-------------------|-----------------5-|
|---------------------|-------------------|

2nd verse

|-----------|---------------|-----------|---------------|
|-----------|-----------7---|-----------|-----------7---|
|-7---11----|-10----7h10--5-|-7---11----|-10----7h10--5-|
|-----------|---------------|-----------|---------------|

|-----------|---------------|----------|---------|
|-----------|------------7--|----------|---------|
|-7---11----|-10----7h10----|----------|-7-------|
|-----------|---------------|-7--------|---------|

Chorus

|-------------|---------------|-------------|---------------|
|-------------|---------------|-------------|---------------|
|-7-----6-----|-5------1------|-7-----6-----|-5------0------|
|-------------|---------------|-------------|---------------|

|-------------|---------------|-------------|-----------|
|-------------|---------------|-------------|-----------|
|-7-----6-----|-5------0------|-0--------2--|-7---------|
|-------------|---------------|-------------|-----------|

Postchorus riff

2nd Chorus

|-------------|-----------|-------------|-----------|
|-------------|-----------|-------------|-----------|
|-7-----6-----|-5---------|-7-----6-----|-5---------|
|-------------|-----------|-------------|-----------|

|-------------|---------------|-------------|-----------|
|-------------|---------------|-------------|-----------|
|-7-----6-----|-5------0------|-0--------2--|-7---------|
|-------------|---------------|-------------|-----------|

Interlude (ah, ah, yeah bit)

|---------|------|--------|-------|
|----let--|------|--------|-------| repeat
|-7--ring-|------|-(7)----|-------|
|---------|------|--------|-------|

Postchorus riff x4

Outro

|------------------|------------------|----------------|-------------|
|------------------|------------------|----------------|-------------|
|-7---7---5h77-5/9-|------------------|-9--9--7h99-7h9-|-9--9--99--9-|
|------------------|-7---7---7(7)7(7)-|----------------|-------------|

Repeat outro riff & continue into..

|------|------|------|------|
|------|------|------|------| repeat once
|-7----|-2----|-11---|------| slowing down
|------|------|------|------|
musique/basse/tablatures/coldplay-everythings-not-lost.txt · Dernière modification: 08 Sep 2021 :: 14:35 de CgX