Exo-brain

Parce que j'ai un cerveau, mais pas trop.

Outils pour utilisateurs

Outils du site


musique:basse:tablatures:city-of-delusion

Muse – City of Delusion

verse 1 (comes in at 0:43)

G|-------------------------------------------------------------------------|
D|--------------5-----------------5-----------------5-----------------5----|
A|-5--8--4----7---7--5--8--4----7---7--5--8--4----7---7--5--8--4----7---7--|
E|-------------------------------------------------------------------------|

G|---------------------------------------------------------------------------|
D|------------5-8-5-----7--------8-10-8-----7-------5-8-5---------------5----|
A|-5--8--7-----------8-----10------------8-----7-----------5--8--4----7---7--|
E|---------------------------------------------------------------------------|

G|-----------------------------------------------------------------|
D|-7-------5---5----7-------5---5----7-----5---5----3--------------|
A|----7------7---7-----7------7---7----7-----7---7-----5-----7---7-|
E|-------6----------------6--------------6----------------5----5---|

G|----------------------------------------------------------------|
D|--------------5-----------------5-----------------5-------------|
A|-5--8--4----7---7--5--8--4----7---7--5--8--4----7---7--5--5--5--|
E|----------------------------------------------------------------|

chorus

G|-----------------------------------------------------|
D|-----------------------------------------------------|
A|-8-8-8--------4-4-4--------5-5-5---------------------|
E|----------------------------------------5-5-5--------|

G|-----------------------------------------------------|
D|-5-5-5-----------------------------------------------|
A|--------------8-8-8--------7-7-7--------5-5-5--------|
E|-----------------------------------------------------|

G|--------------------------------------------------------|
D|-7-7-7------5-5-5-5-5-----------------------------------|
A|-----------------------8-8-8-8-8--4-4-4-4-4--5-5-5-5-5--|
E|--------------------------------------------------------|

G|--------------------------------------------------------|
D|-7-7-7-7-7--5-5-5-5-5-----------------------------------|
A|-----------------------8-8-8-8-8--7-7-7-7-7--5-5-5-5-5--|
E|--------------------------------------------------------|

G|----------------------------------------------------------------|
D|-7-----5----5----7-----5----5----7-----5----5----3-----3----3---|
A|----7-----7---7-----7-----7---7-----7-----7---7-----5-----5---5-|
E|----------------------------------------------------------------|

verse 2 w/wah

G|-------------------------------------------------------------------------|
D|--------------5-----------------5-----------------5-----------------5----|
A|-5--8--4----7---7--5--8--4----7---7--5--8--4----7---7--5--8--4----7---7--|
E|-------------------------------------------------------------------------|x2

G|---------------------------------------------------------------------------|
D|------------5-8-5-----7--------8-10-8-----7-------5-8-5---------------5----|
A|-5--8--7-----------8-----10------------8-----7-----------5--8--4----7---7--|
E|---------------------------------------------------------------------------|

G|-----------------------------------------------------------------|
D|-7-------5---5----7-------5---5----7-----5---5----3--------------|
A|----7------7---7-----7------7---7----7-----7---7-----5-----7---7-|
E|-------6----------------6--------------6----------------5----5---|

G|----------------------------------------------------------------|
D|--------------5-----------------5-----------------5-------------|
A|-5--8--4----7---7--5--8--4----7---7--5--8--4----7---7--5--5--5--|
E|----------------------------------------------------------------|
musique/basse/tablatures/city-of-delusion.txt · Dernière modification: 24 Nov 2020 :: 16:37 de CgX