Wiki CgX

Parce que j'ai un cerveau, mais pas trop.

Outils pour utilisateurs

Outils du site


musique:basse:tablatures:apc-mer-de-noms

A perfect circle - Mer de noms

Tabbed by daniel (mirv) - dholland@classicnet.net

Magdalena

tune down 1/2 step in addition to “drop d” tuning (low to high: Db Ab Db Gb)

intro (0:00)
|-----------------|-----------------|-----------------|--------------------||
|-----------------|-----------------|-----------------|--------------------||
|-----------------|-----------------|-----------------|--------------------||
|-0--0--0-0-0-0-0-|-0--0--0-0-0-0-0-|-0--0--0-0-0-0-0-|-3--3--3--3-3-3-3-3-||

verses (0:40) 
|-----------------|-----------------|-----------------|--------------------||
|-----------------|-----------------|-----------------|--------------------||
|-----------------|-----------------|-----------------|--------------------||
|-0---------------|-(0)-------------|-(0)-------------|-3------------------||

chorus (1:16) 
|-----------------|-----------------|-----------------|-----------------|
|-----------------|-----------------|-----------------|-----------------|
|-5-5-5-5-5-5-5-5-|-7-7-7-7-8-8-8-8-|-3-3-3-3-3-3-3-3-|-1-1-1-1-1-1-1-1-|
|-----------------|-----------------|-----------------|-----------------|

play the above riff once, then play this one:
|-----------------|-----------------|--------------------------|-----------------||
|-----------------|-----------------|--------------------------|-----------------||
|-----------------|-----------------|--------------------------|-----------------||
|-0-0-0-0-0-0-0-0-|-2-2-2-2-3-3-3-3-|-/10-10-10-10-10-10-10-10-|-8-8-8-8-8-8-8-8-||

(2:10) play 8 times
|----------------||
|-7--------------||
|-5--------------||
|-0--------------||

solo riff (2:28) 
|---------|---------|---------|---------|
|---------|---------|---------|---------|
|---------|---------|---------|---------|
|-2-2-2-2-|-4-4-4-4-|-0-0-0-0-|-0-0-0-0-|

play the above for the first half of the solo, and then begin playing this: (2:46 and 3:21)
|---------|---------|---------|---------|---------|--------------|---------|---------||
|---------|---------|---------|---------|---------|--------------|---------|---------||
|---------|---------|---------|---------|---------|--------------|---------|---------||
|-2-2-2-2-|-4-4-4-4-|-0-0-0-0-|-0-0-0-0-|-2-2-2-2-|-/11-11-11-11-|-0-0-0-0-|-0-0-0-0-||


outro (3:06 and 3:39) 
|---------|---------|---------|---------||
|---------|---------|---------|---------||
|---------|---------|---------|---------||
|-3-3-3-3-|-5-5-5-5-|-0-0-0-0-|-0-0-0-0-||

end.

Rose

tune down 1/2 step (low to high: Eb Ab Db Gb) unless specified otherwise, use a gritty sounding distortion

intro/verses
|--------------------------------------------||
|--------------------------------------------||
|---7-(7)/10\---7-(7)/12\--7-(7)/10\---/7\3--||
|-0-----------0----------0-----------0-------||


(0:19)
|-------------------|-----------------------|
|-------------------|-----------------------|
|-------------------|-----------------------|
|-1----1----1----1--|--1----1----1----1---3-|


(1:07) (no distortion)
|----------------------|-------------------------|------------||
|----------------------|-------------------------|------------||
|-------7--------------|--------7----------------|------------||
|-0----------0-----/7\-|---0---------0----/8-----|------------||


(1:57)
|------------------------|------------------------|-----------------------|-----------------||
|------------------------|------------------------|-----------------------|-----------------||
|-7--7-7-7-10--10-10-10--|-7--7-7-7--12--12-12-12-|-7--7-7-7-10--10-10-10-|-7-7-7-7-3-3-3-3-||
|------------------------|------------------------|-----------------------|-----------------||

Judith

tune down 1/2 step in addition to “drop d” tuning (low to high: Db Ab Db Gb) note: paz uses a pick on this song (and most of the others, i think.)

. = stacato note

intro
(0:01) (6/8 time)
|-------------------------|--------------------------||
|-------------------------|--------------------------||
|--3h5-5-5-5--3h5-6p5-3h5-|-3h5-5-5-5-5-5-5----------||
|-------------------------|-----------------3--3--3--||
           .

(0:27) verse (6/8 time)
|---------------------------------|---------------------------||
|---------------------------------|---------------------------||
|---------------------------------|---------------------------||
|-10h12-12-12-x-x-10h12-12-12-x-x-|-10h12-12-12-x-x--3--3--3--||


(1:02) - repeat intro riff

okay, this next part kinda throws me... i never have been that great at determining what time signature something is, but the chorus is either 4/4 or 6/8.  the guitars/bass make it sound like 4/4, but the drummer is accenting every third beat, making me think he's still playing in 6/8 time.  i dunno.  just listen to it and get the notes in the right places, and who cares?

(1:20) 
|------------|------------||
|------------|------------||
|------------|------------||
|-8--8--8--8-|-5--5--5--5-||

last time during chorus:
|-----------------|----------------||
|-----------------|----------------||
|-----------------|----------------||
|-8--8--8/10-10---|-5--5--5\3--3---||


(1:34) - repeat verse riff up till the last three notes.  once you get to that point, start playing the next riff.

this next riff is kinda buried... or it might just be my speakers suck and won't bring the bass out that well.  but anyway, here's a bit of a guess at what's going on... if nothing else, it's close enough that you could fake your way by with it.

(1:37)
|---------------------||
|---------------------||
|-5h6-5p3-------------||
|---------5p3-0-0--0--||
              . .  .

for the rest of the song beyond this, you're either playing the verse or chorus riffs. It's pretty easy to listen and tell which part it is. So, have fun.

Orestes

tune down 1/2 step

 verses (0:10)
|-----------|--------------|---------------|----------------||
|---0----/3-|--------------|--0---------/5-|-----------(5)--||
|-----------|--1----(1)/3--|---------------|--1-------------||
|-----------|--------------|---------------|--------3-------||


 (0:49) 
 there are some variants to this part, like sometimes she'll go up to
 C for a beat on the last section (Bb).

|--------------|-------------|--------------|-----------||
|--------------|-------------|--------------|-----------||
|--5--5--5-----|-3--3--3-----|-1--1--1------|-(1)-------||
|--------------|-------------|--------------|-----------||


 (1:28)
 Paz almost always changes up her rhythm on this part, so here is the  very basic formula.  if you want to take time out to memorize each
 little change she does, more power to you, here's your starting point. This section lasts clear through the "one more medicated peaceful 
moment" verse, and then it's back to the previous section that started at 0:49.

|-------|-------|----------||
|-------|-------|----------||
|-5-----|-1-----|-1h3---5--||
|-------|-------|----------||

this part is also played during the solo, except at a more upbeat rate.
Eighth notes, i imagine.  unfortunately, my mp3 cuts off here, so if there are more parts afterwards, i apologize, i'll add the rest (assuming there is more)

===== Three libras =====

okay.  i'm about positive this isn't note for note, but i can't really tell cause my recording of the song is so friggin muddy sounding, but i know i've got the right root notes... just the fills may be off.   unless specified otherwise, play in 4/4.

<code>
 section I
|-----|-----------|--------------|-----------|-------------||
|-----|-----------|--------------|-----------|-------------||   
|-----|-----------|-2--(2)-------|---7\------|-2--2----5---||
|-----|-5-5\--0---|--------3-----|-5-----0---|-------3-3---||

 section II
|------------|------------|------------|------------|------------|------------|
|------------|------------|------------|------------|------------|------------|
|------------|------------|-2--2--4--4-|-4--4--4--4-|-4--4-------|------------|
|-/9----5--5-|-5--5--5--5-|------------|------------|-------5--5-|-5--5--5--5-|

              1.
|------------|------------|------------|------------|
|------------|------------|------------|------------|
|-2--2--4--4-|-4--4--5----|-5----------|------------|
|------------|------------|------------|------------|

 2.
|------------|-------||
|------------|-------||
|-4--4--5--5-|-5--5--||
|------------|-------||

at the very end of the second ending (2.) for the last two D notes (5), 
go into 2/4 time.

 chorus (i presume)
|-----------|------------||
|-------2---|------------||
|-----------|-3--3-------||
|-0---------|-------1--1-||

 
 section III
|---------------|-------------------------|----------------------||
|---------------|-------------------------|----------------------||
|---------------|--------4----------------|--------4---5---------||
|--5----/9--5---|----0------5-----/9--5---|----0-----------------||

I wasn't quite sure on how to divide the bars on that last part, so i just kind of threw some in there. listen to the recording and you can probably match the notes and figure out the proper rhythm easily.

musique/basse/tablatures/apc-mer-de-noms.txt · Dernière modification: 08 Sep 2021 :: 14:36 de CgX