Wiki CgX

Parce que j'ai un cerveau, mais pas trop.

Outils pour utilisateurs

Outils du site


musique:basse:exo-gamme-arpège

Exo de gamme en arpège

Montée et descente gamme en arpège (Do majeur, La mineur naturel)

  F#		    G7		      A-7		B-7b5
|-----------------|-----------------|-----------------|-------2------------|
|-------2---------|-------3---------|-----2-5---------|-----3--------------|
|-----3-----------|---2-5-----------|---3-------------|-2-5----------------|
|-1-5-------------|-3---------------|-5---------------|--------------------|
d 1 4 2 1           2 1 4 2           4 2 1 4           1 4 2 1

  C#		    C#		      B-7b5             A-7		    
|--------4--------|-4---------------|-2---------------|--------------------|
|---2--5----------|---5--2----------|---3-------------|-5-2----------------|
|-3---------------|--------3--------|-----5-2---------|-----3--------------|
|-----------------|-----------------|-----------------|-------5------------|
d 2 1  4 3          3 4  1 2          1 2 4 1           4 1 2 4

 G7		    F#
|-----------------|-----------------||
|-3---------------|-2---------------||
|---5-2-----------|---3-------------||
|-------3---------|-----5-1---------||
d 2 4 1 2           1 2 4 1
musique/basse/exo-gamme-arpège.txt · Dernière modification: 24 Nov 2020 :: 16:20 de CgX